  0
SECTION
  2
HEADER
  9
$ACADVER
  1
AC1009
  9
$DWGCODEPAGE
  3
ansi_1252
  9
$INSBASE
 10
0.0
 20
0.0
 30
0.0
  9
$EXTMIN
 10
0.0
 20
-80.36716288941489
 30
0.0
  9
$EXTMAX
 10
48.0
 20
49.68520230537501
 30
0.0
  9
$LIMMIN
 10
0.0
 20
0.0
  9
$LIMMAX
 10
12.0
 20
9.0
  9
$ORTHOMODE
 70
     0
  9
$REGENMODE
 70
     1
  9
$FILLMODE
 70
     1
  9
$QTEXTMODE
 70
     0
  9
$MIRRTEXT
 70
     1
  9
$DRAGMODE
 70
     2
  9
$LTSCALE
 40
1.0
  9
$OSMODE
 70
    37
  9
$ATTMODE
 70
     1
  9
$TEXTSIZE
 40
0.2
  9
$TRACEWID
 40
0.05
  9
$TEXTSTYLE
  7
STANDARD
  9
$CLAYER
  8
0
  9
$CELTYPE
  6
BYLAYER
  9
$CECOLOR
 62
   256
  9
$DIMSCALE
 40
1.0
  9
$DIMASZ
 40
0.18
  9
$DIMEXO
 40
0.0625
  9
$DIMDLI
 40
0.38
  9
$DIMRND
 40
0.0
  9
$DIMDLE
 40
0.0
  9
$DIMEXE
 40
0.18
  9
$DIMTP
 40
0.0
  9
$DIMTM
 40
0.0
  9
$DIMTXT
 40
0.18
  9
$DIMCEN
 40
0.09
  9
$DIMTSZ
 40
0.0
  9
$DIMTOL
 70
     0
  9
$DIMLIM
 70
     0
  9
$DIMTIH
 70
     1
  9
$DIMTOH
 70
     1
  9
$DIMSE1
 70
     0
  9
$DIMSE2
 70
     0
  9
$DIMTAD
 70
     0
  9
$DIMZIN
 70
     0
  9
$DIMBLK
  1

  9
$DIMASO
 70
     1
  9
$DIMSHO
 70
     1
  9
$DIMPOST
  1

  9
$DIMAPOST
  1

  9
$DIMALT
 70
     0
  9
$DIMALTD
 70
     2
  9
$DIMALTF
 40
25.4
  9
$DIMLFAC
 40
1.0
  9
$DIMTOFL
 70
     0
  9
$DIMTVP
 40
0.0
  9
$DIMTIX
 70
     0
  9
$DIMSOXD
 70
     0
  9
$DIMSAH
 70
     0
  9
$DIMBLK1
  1

  9
$DIMBLK2
  1

  9
$DIMSTYLE
  2
STANDARD
  9
$DIMCLRD
 70
     0
  9
$DIMCLRE
 70
     0
  9
$DIMCLRT
 70
     0
  9
$DIMTFAC
 40
1.0
  9
$DIMGAP
 40
0.09
  9
$LUNITS
 70
     2
  9
$LUPREC
 70
     4
  9
$SKETCHINC
 40
0.1
  9
$FILLETRAD
 40
0.5
  9
$AUNITS
 70
     0
  9
$AUPREC
 70
     0
  9
$MENU
  1
.
  9
$ELEVATION
 40
0.0
  9
$PELEVATION
 40
0.0
  9
$THICKNESS
 40
0.0
  9
$LIMCHECK
 70
     0
  9
$CHAMFERA
 40
0.5
  9
$CHAMFERB
 40
0.5
  9
$SKPOLY
 70
     0
  9
$TDCREATE
 40
2456337.473809468
  9
$TDUPDATE
 40
2456337.473809479
  9
$TDINDWG
 40
0.0000000116
  9
$TDUSRTIMER
 40
0.0000000116
  9
$USRTIMER
 70
     1
  9
$ANGBASE
 50
0.0
  9
$ANGDIR
 70
     0
  9
$PDMODE
 70
     0
  9
$PDSIZE
 40
0.0
  9
$PLINEWID
 40
0.0
  9
$COORDS
 70
     1
  9
$SPLFRAME
 70
     0
  9
$SPLINETYPE
 70
     6
  9
$SPLINESEGS
 70
     8
  9
$ATTDIA
 70
     0
  9
$ATTREQ
 70
     1
  9
$HANDLING
 70
     1
  9
$HANDSEED
  5
DF
  9
$SURFTAB1
 70
     6
  9
$SURFTAB2
 70
     6
  9
$SURFTYPE
 70
     6
  9
$SURFU
 70
     6
  9
$SURFV
 70
     6
  9
$UCSNAME
  2

  9
$UCSORG
 10
0.0
 20
0.0
 30
0.0
  9
$UCSXDIR
 10
1.0
 20
0.0
 30
0.0
  9
$UCSYDIR
 10
0.0
 20
1.0
 30
0.0
  9
$PUCSNAME
  2

  9
$PUCSORG
 10
0.0
 20
0.0
 30
0.0
  9
$PUCSXDIR
 10
1.0
 20
0.0
 30
0.0
  9
$PUCSYDIR
 10
0.0
 20
1.0
 30
0.0
  9
$USERI1
 70
     0
  9
$USERI2
 70
     0
  9
$USERI3
 70
     0
  9
$USERI4
 70
     0
  9
$USERI5
 70
     0
  9
$USERR1
 40
16.0
  9
$USERR2
 40
0.0
  9
$USERR3
 40
0.0
  9
$USERR4
 40
0.0
  9
$USERR5
 40
0.0
  9
$WORLDVIEW
 70
     1
  9
$SHADEDGE
 70
     3
  9
$SHADEDIF
 70
    70
  9
$TILEMODE
 70
     1
  9
$MAXACTVP
 70
    64
  9
$PLIMCHECK
 70
     0
  9
$PEXTMIN
 10
1.00000000000000E+20
 20
1.00000000000000E+20
 30
1.00000000000000E+20
  9
$PEXTMAX
 10
-1.00000000000000E+20
 20
-1.00000000000000E+20
 30
-1.00000000000000E+20
  9
$PLIMMIN
 10
0.0
 20
0.0
  9
$PLIMMAX
 10
12.0
 20
9.0
  9
$UNITMODE
 70
     0
  9
$VISRETAIN
 70
     1
  9
$PLINEGEN
 70
     0
  9
$PSLTSCALE
 70
     1
  0
ENDSEC
  0
SECTION
  2
TABLES
  0
TABLE
  2
VPORT
 70
     1
  0
VPORT
  2
*ACTIVE
 70
     0
 10
0.0
 20
0.0
 11
1.0
 21
1.0
 12
24.0
 22
-15.34098029201994
 13
0.0
 23
0.0
 14
0.5
 24
0.5
 15
0.5
 25
0.5
 16
0.0
 26
0.0
 36
1.0
 17
0.0
 27
0.0
 37
0.0
 40
143.0576017142689
 41
1.60267857142857
 42
50.0
 43
0.0
 44
0.0
 50
0.0
 51
0.0
 71
     0
 72
   100
 73
     1
 74
     3
 75
     0
 76
     0
 77
     0
 78
     0
  0
ENDTAB
  0
TABLE
  2
LTYPE
 70
     8
  0
LTYPE
  2
CONTINUOUS
 70
     0
  3
Solid line
 72
    65
 73
     0
 40
0.0
  0
LTYPE
  2
DASHED
 70
     0
  3
Dashed
 72
    65
 73
     2
 40
15.0
 49
7.0
 49
-8.0
  0
LTYPE
  2
DOTTED
 70
     0
  3
Dotted
 72
    65
 73
     2
 40
1.0
 49
0.0
 49
-1.0
  0
LTYPE
  2
DOT_CENTER
 70
     0
  3
Dot_Center
 72
    65
 73
     4
 40
14.0
 49
12.0
 49
-1.0
 49
0.0
 49
-1.0
  0
LTYPE
  2
LONG_DASHED
 70
     0
  3
Long_Dashed
 72
    65
 73
     2
 40
15.0
 49
10.0
 49
-5.0
  0
LTYPE
  2
DASH_CENTER
 70
     0
  3
Dash_Center
 72
    65
 73
     4
 40
14.0
 49
11.0
 49
-1.0
 49
1.0
 49
-1.0
  0
LTYPE
  2
PHANTOM
 70
     0
  3
Phantom
 72
    65
 73
     6
 40
13.0
 49
10.0
 49
-1.0
 49
0.0
 49
-1.0
 49
0.0
 49
-1.0
  0
LTYPE
  2
CENTER_DASH_DASH
 70
     0
  3
Center_Dash_Dash
 72
    65
 73
     6
 40
14.0
 49
9.0
 49
-1.0
 49
1.0
 49
-1.0
 49
1.0
 49
-1.0
  0
ENDTAB
  0
TABLE
  2
LAYER
 70
     2
  0
LAYER
  2
0
 70
     0
 62
     7
  6
CONTINUOUS
  0
LAYER
  2
1
 70
     0
 62
     7
  6
CONTINUOUS
  0
ENDTAB
  0
TABLE
  2
STYLE
 70
     1
  0
STYLE
  2
STANDARD
 70
     0
 40
0.0
 41
1.0
 50
0.0
 71
     0
 42
0.2
  3
txt
  4

  0
ENDTAB
  0
TABLE
  2
VIEW
 70
     0
  0
ENDTAB
  0
TABLE
  2
UCS
 70
     0
  0
ENDTAB
  0
TABLE
  2
APPID
 70
     1
  0
APPID
  2
ACAD
 70
     0
  0
ENDTAB
  0
TABLE
  2
DIMSTYLE
 70
     1
  0
DIMSTYLE
  2
STANDARD
 70
     0
  3

  4

  5

  6

  7

 40
1.0
 41
0.18
 42
0.0625
 43
0.38
 44
0.18
 45
0.0
 46
0.0
 47
0.0
 48
0.0
140
0.18
141
0.09
142
0.0
143
25.4
144
1.0
145
0.0
146
1.0
147
0.09
 71
     0
 72
     0
 73
     1
 74
     1
 75
     0
 76
     0
 77
     0
 78
     0
170
     0
171
     2
172
     0
173
     0
174
     0
175
     0
176
     0
177
     0
178
     0
  0
ENDTAB
  0
ENDSEC
  0
SECTION
  2
BLOCKS
  0
BLOCK
  8
0
  2
$MODEL_SPACE
 70
     0
 10
0.0
 20
0.0
 30
0.0
  3
$MODEL_SPACE
  1

  0
ENDBLK
  5
21
  8
0
  0
BLOCK
 67
     1
  8
0
  2
$PAPER_SPACE
 70
     0
 10
0.0
 20
0.0
 30
0.0
  3
$PAPER_SPACE
  1

  0
ENDBLK
  5
1D
 67
     1
  8
0
  0
ENDSEC
  0
SECTION
  2
ENTITIES
  0
POINT
  5
43
  8
1
 62
     3
 10
0.0
 20
0.0
 30
0.0
  0
POINT
  5
44
  8
1
 62
     7
 10
0.0
 20
0.0
 30
0.0
  0
LINE
  5
45
  8
0
  6
CONTINUOUS
 62
     7
 10
0.0
 20
0.0
 30
0.0
 11
0.0
 21
39.68520230537411
 31
0.0
  0
LINE
  5
46
  8
1
  6
DOT_CENTER
 62
     7
 10
20.14999999999986
 20
44.25520230537518
 30
0.0
 11
24.55000000000086
 21
44.25520230537518
 31
0.0
  0
LINE
  5
47
  8
1
  6
DOT_CENTER
 62
     7
 10
22.34999999999991
 20
46.455202305375
 30
0.0
 11
22.34999999999991
 21
42.05520230537513
 31
0.0
  0
LINE
  5
48
  8
1
  6
DOT_CENTER
 62
     7
 10
15.06999999999994
 20
44.25520230537518
 30
0.0
 11
19.47000000000003
 21
44.25520230537518
 31
0.0
  0
LINE
  5
49
  8
1
  6
DOT_CENTER
 62
     7
 10
17.26999999999998
 20
46.455202305375
 30
0.0
 11
17.26999999999998
 21
42.05520230537513
 31
0.0
  0
LINE
  5
4A
  8
1
  6
DOT_CENTER
 62
     7
 10
9.99000000000001
 20
44.25520230537518
 30
0.0
 11
14.38999999999987
 21
44.25520230537518
 31
0.0
  0
LINE
  5
4B
  8
1
  6
DOT_CENTER
 62
     7
 10
12.18999999999983
 20
46.455202305375
 30
0.0
 11
12.18999999999983
 21
42.05520230537513
 31
0.0
  0
LINE
  5
4C
  8
1
  6
DOT_CENTER
 62
     7
 10
25.23000000000002
 20
44.25520230537518
 30
0.0
 11
29.62999999999988
 21
44.25520230537518
 31
0.0
  0
LINE
  5
4D
  8
1
  6
DOT_CENTER
 62
     7
 10
27.42999999999984
 20
46.455202305375
 30
0.0
 11
27.42999999999984
 21
42.05520230537513
 31
0.0
  0
LINE
  5
4E
  8
1
  6
DOT_CENTER
 62
     7
 10
35.31002597325005
 20
-35.50680487176101
 30
0.0
 11
39.48997402675104
 21
-35.50680487176101
 31
0.0
  0
LINE
  5
4F
  8
1
  6
DOT_CENTER
 62
     7
 10
37.39999999999986
 20
-33.41683084500983
 30
0.0
 11
37.39999999999986
 21
-37.59677889851082
 31
0.0
  0
LINE
  5
50
  8
1
  6
DOT_CENTER
 62
     7
 10
35.31002597324891
 20
-21.91251651712582
 30
0.0
 11
39.48997402675104
 21
-21.91251651712582
 31
0.0
  0
LINE
  5
51
  8
1
  6
DOT_CENTER
 62
     7
 10
37.39999999999986
 20
-19.82254249037487
 30
0.0
 11
37.39999999999986
 21
-24.002490543877
 31
0.0
  0
LINE
  5
52
  8
1
  6
DOT_CENTER
 62
     7
 10
35.61002597324887
 20
-9.11251651712587
 30
0.0
 11
39.789974026751
 21
-9.11251651712587
 31
0.0
  0
LINE
  5
53
  8
1
  6
DOT_CENTER
 62
     7
 10
37.70000000000005
 20
-7.02254249037492
 30
0.0
 11
37.70000000000005
 21
-11.20249054387591
 31
0.0
  0
LINE
  5
54
  8
1
  6
DOT_CENTER
 62
     7
 10
35.61002597324887
 20
0.88748348287413
 30
0.0
 11
39.789974026751
 21
0.88748348287413
 31
0.0
  0
LINE
  5
55
  8
1
  6
DOT_CENTER
 62
     7
 10
37.70000000000005
 20
2.97745750962508
 30
0.0
 11
37.70000000000005
 21
-1.20249054387591
 31
0.0
  0
LINE
  5
56
  8
1
  6
DOT_CENTER
 62
     7
 10
30.30999999999995
 20
44.25520230537518
 30
0.0
 11
34.71000000000004
 21
44.25520230537518
 31
0.0
  0
LINE
  5
57
  8
1
  6
DOT_CENTER
 62
     7
 10
32.50999999999999
 20
46.455202305375
 30
0.0
 11
32.50999999999999
 21
42.05520230537513
 31
0.0
  0
LINE
  5
58
  8
1
  6
DOT_CENTER
 62
     7
 10
32.84999999999991
 20
34.15520230537504
 30
0.0
 11
37.25
 21
34.15520230537504
 31
0.0
  0
LINE
  5
59
  8
1
  6
DOT_CENTER
 62
     7
 10
35.04999999999996
 20
36.35520230537509
 30
0.0
 11
35.04999999999996
 21
31.955202305375
 31
0.0
  0
LINE
  5
5A
  8
1
  6
DOT_CENTER
 62
     7
 10
27.76999999999998
 20
34.15520230537504
 30
0.0
 11
32.16999999999985
 21
34.15520230537504
 31
0.0
  0
LINE
  5
5B
  8
1
  6
DOT_CENTER
 62
     7
 10
29.97000000000003
 20
36.35520230537509
 30
0.0
 11
29.97000000000003
 21
31.955202305375
 31
0.0
  0
LINE
  5
5C
  8
1
  6
DOT_CENTER
 62
     7
 10
17.6099999999999
 20
34.15520230537504
 30
0.0
 11
22.00999999999999
 21
34.15520230537504
 31
0.0
  0
LINE
  5
5D
  8
1
  6
DOT_CENTER
 62
     7
 10
19.80999999999995
 20
36.35520230537509
 30
0.0
 11
19.80999999999995
 21
31.955202305375
 31
0.0
  0
LINE
  5
5E
  8
1
  6
DOT_CENTER
 62
     7
 10
12.52999999999997
 20
34.15520230537504
 30
0.0
 11
16.92999999999984
 21
34.15520230537504
 31
0.0
  0
LINE
  5
5F
  8
1
  6
DOT_CENTER
 62
     7
 10
14.73000000000002
 20
36.35520230537509
 30
0.0
 11
14.73000000000002
 21
31.955202305375
 31
0.0
  0
LINE
  5
60
  8
1
  6
DOT_CENTER
 62
     7
 10
22.68999999999983
 20
34.15520230537504
 30
0.0
 11
27.08999999999992
 21
34.15520230537504
 31
0.0
  0
LINE
  5
61
  8
1
  6
DOT_CENTER
 62
     7
 10
24.88999999999987
 20
36.35520230537509
 30
0.0
 11
24.88999999999987
 21
31.955202305375
 31
0.0
  0
LINE
  5
62
  8
1
  6
DOT_CENTER
 62
     7
 10
25.01999999999998
 20
-68.9147976946249
 30
0.0
 11
30.74000000000001
 21
-68.9147976946249
 31
0.0
  0
LINE
  5
63
  8
1
  6
DOT_CENTER
 62
     7
 10
27.87999999999988
 20
-66.054797694625
 30
0.0
 11
27.87999999999988
 21
-71.77479769462502
 31
0.0
  0
LINE
  5
64
  8
1
  6
DOT_CENTER
 62
     7
 10
17.39999999999986
 20
-68.9147976946249
 30
0.0
 11
23.11999999999989
 21
-68.9147976946249
 31
0.0
  0
LINE
  5
65
  8
1
  6
DOT_CENTER
 62
     7
 10
20.25999999999999
 20
-66.054797694625
 30
0.0
 11
20.25999999999999
 21
-71.77479769462502
 31
0.0
  0
LINE
  5
66
  8
0
  6
CONTINUOUS
 62
     7
 10
9.64999999999986
 20
48.68520230537501
 30
0.0
 11
9.64999999999986
 21
40.65520230537504
 31
0.0
  0
LINE
  5
67
  8
0
  6
CONTINUOUS
 62
     7
 10
9.64999999999986
 20
49.38520230537711
 30
0.0
 11
9.64999999999986
 21
49.68520230537501
 31
0.0
  0
LINE
  5
68
  8
0
  6
CONTINUOUS
 62
     7
 10
35.04999999999996
 20
49.68520230537501
 30
0.0
 11
35.04999999999996
 21
49.38520230537711
 31
0.0
  0
LINE
  5
69
  8
0
  6
CONTINUOUS
 62
     7
 10
35.04999999999996
 20
49.68520230537501
 30
0.0
 11
9.64999999999986
 21
49.68520230537501
 31
0.0
  0
LINE
  5
6A
  8
0
  6
CONTINUOUS
 62
     7
 10
9.64999999999986
 20
49.68520230537501
 30
0.0
 11
8.75
 21
49.68520230537501
 31
0.0
  0
LINE
  5
6B
  8
0
  6
CONTINUOUS
 62
     7
 10
36.75
 20
49.68520230537501
 30
0.0
 11
35.04999999999996
 21
49.68520230537501
 31
0.0
  0
LINE
  5
6C
  8
0
  6
CONTINUOUS
 62
     7
 10
9.64999999999986
 20
49.02867752578209
 30
0.0
 11
9.64999999999986
 21
48.87245659819405
 31
0.0
  0
LINE
  5
6D
  8
0
  6
CONTINUOUS
 62
     7
 10
9.64999999999986
 20
49.02867752578209
 30
0.0
 11
9.64999999999986
 21
49.38520230537711
 31
0.0
  0
LINE
  5
6E
  8
0
  6
CONTINUOUS
 62
     7
 10
35.04999999999996
 20
49.02867752578209
 30
0.0
 11
9.64999999999986
 21
49.02867752578209
 31
0.0
  0
LINE
  5
6F
  8
0
  6
CONTINUOUS
 62
     7
 10
9.64999999999986
 20
48.87245659819405
 30
0.0
 11
9.64999999999986
 21
48.68520230537501
 31
0.0
  0
LINE
  5
70
  8
0
  6
CONTINUOUS
 62
     7
 10
8.75
 20
48.68520230537411
 30
0.0
 11
9.64999999999986
 21
48.68520230537501
 31
0.0
  0
LINE
  5
71
  8
0
  6
CONTINUOUS
 62
     7
 10
36.75
 20
49.68520230537501
 30
0.0
 11
48.0
 21
49.68520230537501
 31
0.0
  0
LINE
  5
72
  8
0
  6
CONTINUOUS
 62
     7
 10
35.04999999999996
 20
48.68520230537501
 30
0.0
 11
36.75
 21
48.68520230537411
 31
0.0
  0
LINE
  5
73
  8
0
  6
CONTINUOUS
 62
     7
 10
35.04999999999996
 20
49.38520230537711
 30
0.0
 11
9.64999999999986
 21
49.38520230537711
 31
0.0
  0
LINE
  5
74
  8
0
  6
CONTINUOUS
 62
     7
 10
35.04999999999996
 20
48.87245659819405
 30
0.0
 11
9.64999999999986
 21
48.87245659819405
 31
0.0
  0
LINE
  5
75
  8
0
  6
CONTINUOUS
 62
     7
 10
35.04999999999996
 20
40.65520230537504
 30
0.0
 11
9.64999999999986
 21
40.65520230537504
 31
0.0
  0
LINE
  5
76
  8
0
  6
CONTINUOUS
 62
     7
 10
16.45000000000005
 20
-73.96479769462485
 30
0.0
 11
31.68999999999983
 21
-73.96479769462485
 31
0.0
  0
LINE
  5
77
  8
0
  6
CONTINUOUS
 62
     7
 10
31.68999999999983
 20
-73.36479769462494
 30
0.0
 11
16.45000000000005
 21
-73.36479769462494
 31
0.0
  0
LINE
  5
78
  8
0
  6
CONTINUOUS
 62
     7
 10
31.68999999999983
 20
-73.06479769462499
 30
0.0
 11
16.45000000000005
 21
-73.06479769462499
 31
0.0
  0
LINE
  5
79
  8
0
  6
CONTINUOUS
 62
     7
 10
16.45000000000005
 20
-65.81479769462499
 30
0.0
 11
16.45000000000005
 21
-65.31479769462499
 31
0.0
  0
LINE
  5
7A
  8
0
  6
CONTINUOUS
 62
     7
 10
16.45000000000005
 20
-73.06479769462499
 30
0.0
 11
16.45000000000005
 21
-65.81479769462499
 31
0.0
  0
LINE
  5
7B
  8
0
  6
CONTINUOUS
 62
     7
 10
31.68999999999983
 20
-65.81479769462499
 30
0.0
 11
16.45000000000005
 21
-65.81479769462499
 31
0.0
  0
LINE
  5
7C
  8
0
  6
CONTINUOUS
 62
     7
 10
31.68999999999983
 20
-65.31479769462499
 30
0.0
 11
16.45000000000005
 21
-65.31479769462499
 31
0.0
  0
LINE
  5
7D
  8
0
  6
CONTINUOUS
 62
     7
 10
31.07405556867593
 20
-80.31479769462499
 30
0.0
 11
16.92594443133999
 21
-80.31479769462499
 31
0.0
  0
LINE
  5
7E
  8
0
  6
CONTINUOUS
 62
     7
 10
16.92594443133999
 20
-80.31479769462499
 30
0.0
 11
0.0
 21
-80.31479769462499
 31
0.0
  0
LINE
  5
7F
  8
0
  6
CONTINUOUS
 62
     7
 10
16.45000000000005
 20
-64.88951080757988
 30
0.0
 11
31.68999999999983
 21
-64.88951080757988
 31
0.0
  0
LINE
  5
80
  8
0
  6
CONTINUOUS
 62
     7
 10
16.45000000000005
 20
-64.31479769462499
 30
0.0
 11
31.68999999999983
 21
-64.31479769462499
 31
0.0
  0
LINE
  5
81
  8
0
  6
CONTINUOUS
 62
     7
 10
16.45000000000005
 20
-64.88951080757988
 30
0.0
 11
16.45000000000005
 21
-65.31479769462499
 31
0.0
  0
LINE
  5
82
  8
0
  6
CONTINUOUS
 62
     7
 10
31.68999999999983
 20
-64.88951080757988
 30
0.0
 11
31.68999999999983
 21
-65.31479769462499
 31
0.0
  0
LINE
  5
83
  8
0
  6
CONTINUOUS
 62
     7
 10
31.68999999999983
 20
-64.31479769462499
 30
0.0
 11
31.68999999999983
 21
-64.88951080757988
 31
0.0
  0
LINE
  5
84
  8
0
  6
CONTINUOUS
 62
     7
 10
31.68999999999983
 20
-64.31479769462499
 30
0.0
 11
48.0
 21
-64.31479769462499
 31
0.0
  0
LINE
  5
85
  8
0
  6
CONTINUOUS
 62
     7
 10
48.0
 20
-80.31479769462499
 30
0.0
 11
31.07405556867593
 21
-80.31479769462499
 31
0.0
  0
LINE
  5
86
  8
0
  6
CONTINUOUS
 62
     7
 10
0.0
 20
49.68520230537501
 30
0.0
 11
8.75
 21
49.68520230537501
 31
0.0
  0
LINE
  5
87
  8
0
  6
CONTINUOUS
 62
     7
 10
8.75
 20
49.68520230537501
 30
0.0
 11
8.75
 21
48.68520230537411
 31
0.0
  0
LINE
  5
88
  8
0
  6
CONTINUOUS
 62
     7
 10
8.75
 20
48.68520230537411
 30
0.0
 11
8.75
 21
39.68520230537411
 31
0.0
  0
LINE
  5
89
  8
0
  6
CONTINUOUS
 62
     7
 10
0.0
 20
39.68520230537411
 30
0.0
 11
0.0
 21
49.68520230537501
 31
0.0
  0
LINE
  5
8A
  8
0
  6
CONTINUOUS
 62
     7
 10
0.0
 20
-64.31479769462499
 30
0.0
 11
0.0
 21
0.0
 31
0.0
  0
LINE
  5
8B
  8
0
  6
CONTINUOUS
 62
     7
 10
48.0
 20
49.68520230537501
 30
0.0
 11
48.0
 21
39.68520230537411
 31
0.0
  0
LINE
  5
8C
  8
0
  6
CONTINUOUS
 62
     7
 10
48.0
 20
39.68520230537411
 30
0.0
 11
48.0
 21
-64.31479769462499
 31
0.0
  0
LINE
  5
8D
  8
0
  6
CONTINUOUS
 62
     7
 10
35.04999999999996
 20
48.87245659819405
 30
0.0
 11
35.04999999999996
 21
49.02867752578209
 31
0.0
  0
LINE
  5
8E
  8
0
  6
CONTINUOUS
 62
     7
 10
35.04999999999996
 20
49.38520230537711
 30
0.0
 11
35.04999999999996
 21
49.02867752578209
 31
0.0
  0
LINE
  5
8F
  8
0
  6
CONTINUOUS
 62
     7
 10
35.04999999999996
 20
48.87245659819405
 30
0.0
 11
35.04999999999996
 21
48.68520230537501
 31
0.0
  0
LINE
  5
90
  8
0
  6
CONTINUOUS
 62
     7
 10
37.58999999999992
 20
39.58520230537511
 30
0.0
 11
37.58999999999992
 21
39.28520230537606
 31
0.0
  0
LINE
  5
91
  8
0
  6
CONTINUOUS
 62
     7
 10
37.58999999999992
 20
38.92867752578309
 30
0.0
 11
37.58999999999992
 21
38.77245659819414
 31
0.0
  0
LINE
  5
92
  8
0
  6
CONTINUOUS
 62
     7
 10
37.58999999999992
 20
39.28520230537606
 30
0.0
 11
37.58999999999992
 21
38.92867752578309
 31
0.0
  0
LINE
  5
93
  8
0
  6
CONTINUOUS
 62
     7
 10
37.58999999999992
 20
38.77245659819414
 30
0.0
 11
37.58999999999992
 21
37.25266030537409
 31
0.0
  0
LINE
  5
94
  8
0
  6
CONTINUOUS
 62
     7
 10
36.75
 20
48.68520230537411
 30
0.0
 11
36.75
 21
49.68520230537501
 31
0.0
  0
LINE
  5
95
  8
0
  6
CONTINUOUS
 62
     7
 10
36.75
 20
39.68520230537411
 30
0.0
 11
36.75
 21
48.68520230537411
 31
0.0
  0
LINE
  5
96
  8
0
  6
CONTINUOUS
 62
     7
 10
39.25
 20
37.25266030537409
 30
0.0
 11
39.25
 21
39.68520230537411
 31
0.0
  0
LINE
  5
97
  8
0
  6
CONTINUOUS
 62
     7
 10
35.04999999999996
 20
48.68520230537501
 30
0.0
 11
35.04999999999996
 21
40.65520230537504
 31
0.0
  0
LINE
  5
98
  8
0
  6
CONTINUOUS
 62
     7
 10
37.58999999999992
 20
37.25266030537409
 30
0.0
 11
37.58999999999992
 21
30.55520230537513
 31
0.0
  0
LINE
  5
99
  8
0
  6
CONTINUOUS
 62
     7
 10
37.58999999999992
 20
30.55520230537513
 30
0.0
 11
12.18999999999983
 21
30.55520230537513
 31
0.0
  0
LINE
  5
9A
  8
0
  6
CONTINUOUS
 62
     7
 10
11.25
 20
28.98520230537497
 30
0.0
 11
39.25
 21
28.98520230537497
 31
0.0
  0
LINE
  5
9B
  8
0
  6
CONTINUOUS
 62
     7
 10
39.25
 20
28.98520230537497
 30
0.0
 11
39.25
 21
37.25266030537409
 31
0.0
  0
LINE
  5
9C
  8
0
  6
CONTINUOUS
 62
     7
 10
11.25
 20
37.25266030537409
 30
0.0
 11
11.25
 21
28.98520230537497
 31
0.0
  0
LINE
  5
9D
  8
0
  6
CONTINUOUS
 62
     7
 10
12.18999999999983
 20
37.25266030537409
 30
0.0
 11
11.25
 21
37.25266030537409
 31
0.0
  0
LINE
  5
9E
  8
0
  6
CONTINUOUS
 62
     7
 10
39.25
 20
37.25266030537409
 30
0.0
 11
37.58999999999992
 21
37.25266030537409
 31
0.0
  0
LINE
  5
9F
  8
0
  6
CONTINUOUS
 62
     7
 10
16.45000000000005
 20
-74.26479769462503
 30
0.0
 11
17.2600000000009
 21
-74.26479769462503
 31
0.0
  0
LINE
  5
A0
  8
0
  6
CONTINUOUS
 62
     7
 10
16.45000000000005
 20
-74.26479769462503
 30
0.0
 11
16.45000000000005
 21
-73.96479769462485
 31
0.0
  0
LINE
  5
A1
  8
0
  6
CONTINUOUS
 62
     7
 10
16.45000000000005
 20
-73.96479769462485
 30
0.0
 11
16.45000000000005
 21
-73.36479769462494
 31
0.0
  0
LINE
  5
A2
  8
0
  6
CONTINUOUS
 62
     7
 10
16.45000000000005
 20
-73.36479769462494
 30
0.0
 11
16.45000000000005
 21
-73.06479769462499
 31
0.0
  0
LINE
  5
A3
  8
0
  6
CONTINUOUS
 62
     7
 10
16.45000000000005
 20
-64.88951080757988
 30
0.0
 11
16.45000000000005
 21
-64.31479769462499
 31
0.0
  0
LINE
  5
A4
  8
0
  6
CONTINUOUS
 62
     7
 10
0.0
 20
-64.31479769462499
 30
0.0
 11
16.45000000000005
 21
-64.31479769462499
 31
0.0
  0
LINE
  5
A5
  8
0
  6
CONTINUOUS
 62
     7
 10
0.0
 20
-80.31479769462499
 30
0.0
 11
0.0
 21
-64.31479769462499
 31
0.0
  0
LINE
  5
A6
  8
0
  6
CONTINUOUS
 62
     7
 10
16.92594443133999
 20
-80.31479769462499
 30
0.0
 11
16.97830962612989
 21
-80.36716288941489
 31
0.0
  0
LINE
  5
A7
  8
0
  6
CONTINUOUS
 62
     7
 10
12.18999999999983
 20
39.28520230537606
 30
0.0
 11
12.18999999999983
 21
39.58520230537511
 31
0.0
  0
LINE
  5
A8
  8
0
  6
CONTINUOUS
 62
     7
 10
12.18999999999983
 20
38.92867752578309
 30
0.0
 11
12.18999999999983
 21
38.77245659819414
 31
0.0
  0
LINE
  5
A9
  8
0
  6
CONTINUOUS
 62
     7
 10
12.18999999999983
 20
39.28520230537606
 30
0.0
 11
12.18999999999983
 21
38.92867752578309
 31
0.0
  0
LINE
  5
AA
  8
0
  6
CONTINUOUS
 62
     7
 10
12.18999999999983
 20
38.77245659819414
 30
0.0
 11
12.18999999999983
 21
37.25266030537409
 31
0.0
  0
LINE
  5
AB
  8
0
  6
CONTINUOUS
 62
     7
 10
11.25
 20
39.68520230537411
 30
0.0
 11
11.25
 21
37.25266030537409
 31
0.0
  0
LINE
  5
AC
  8
0
  6
CONTINUOUS
 62
     7
 10
12.18999999999983
 20
37.25266030537409
 30
0.0
 11
12.18999999999983
 21
30.55520230537513
 31
0.0
  0
LINE
  5
AD
  8
0
  6
CONTINUOUS
 62
     7
 10
37.58999999999992
 20
39.58520230537511
 30
0.0
 11
12.18999999999983
 21
39.58520230537511
 31
0.0
  0
LINE
  5
AE
  8
0
  6
CONTINUOUS
 62
     7
 10
12.18999999999983
 20
39.28520230537606
 30
0.0
 11
37.58999999999992
 21
39.28520230537606
 31
0.0
  0
LINE
  5
AF
  8
0
  6
CONTINUOUS
 62
     7
 10
37.58999999999992
 20
38.92867752578309
 30
0.0
 11
12.18999999999983
 21
38.92867752578309
 31
0.0
  0
LINE
  5
B0
  8
0
  6
CONTINUOUS
 62
     7
 10
36.75
 20
39.68520230537411
 30
0.0
 11
39.25
 21
39.68520230537411
 31
0.0
  0
LINE
  5
B1
  8
0
  6
CONTINUOUS
 62
     7
 10
8.75
 20
39.68520230537411
 30
0.0
 11
11.25
 21
39.68520230537411
 31
0.0
  0
LINE
  5
B2
  8
0
  6
CONTINUOUS
 62
     7
 10
0.0
 20
39.68520230537411
 30
0.0
 11
8.75
 21
39.68520230537411
 31
0.0
  0
LINE
  5
B3
  8
0
  6
CONTINUOUS
 62
     7
 10
48.0
 20
39.68520230537411
 30
0.0
 11
39.25
 21
39.68520230537411
 31
0.0
  0
LINE
  5
B4
  8
0
  6
CONTINUOUS
 62
     7
 10
12.18999999999983
 20
38.77245659819414
 30
0.0
 11
37.58999999999992
 21
38.77245659819414
 31
0.0
  0
LINE
  5
B5
  8
0
  6
CONTINUOUS
 62
     7
 10
31.68999999999983
 20
-65.81479769462499
 30
0.0
 11
31.68999999999983
 21
-65.31479769462499
 31
0.0
  0
LINE
  5
B6
  8
0
  6
CONTINUOUS
 62
     7
 10
31.68999999999983
 20
-65.81479769462499
 30
0.0
 11
31.68999999999983
 21
-73.06479769462499
 31
0.0
  0
LINE
  5
B7
  8
0
  6
CONTINUOUS
 62
     7
 10
30.88000000000102
 20
-74.26479769462503
 30
0.0
 11
30.88000000000102
 21
-76.76479769462503
 31
0.0
  0
LINE
  5
B8
  8
0
  6
CONTINUOUS
 62
     7
 10
23.2600000000009
 20
-74.26479769462503
 30
0.0
 11
24.87999999999988
 21
-74.26479769462503
 31
0.0
  0
LINE
  5
B9
  8
0
  6
CONTINUOUS
 62
     7
 10
24.87999999999988
 20
-76.76479769462503
 30
0.0
 11
24.87999999999988
 21
-74.26479769462503
 31
0.0
  0
LINE
  5
BA
  8
0
  6
CONTINUOUS
 62
     7
 10
24.87999999999988
 20
-76.76479769462503
 30
0.0
 11
30.88000000000102
 21
-76.76479769462503
 31
0.0
  0
LINE
  5
BB
  8
0
  6
CONTINUOUS
 62
     7
 10
31.68999999999983
 20
-73.96479769462485
 30
0.0
 11
31.68999999999983
 21
-74.26479769462503
 31
0.0
  0
LINE
  5
BC
  8
0
  6
CONTINUOUS
 62
     7
 10
31.68999999999983
 20
-73.36479769462494
 30
0.0
 11
31.68999999999983
 21
-73.96479769462485
 31
0.0
  0
LINE
  5
BD
  8
0
  6
CONTINUOUS
 62
     7
 10
30.88000000000102
 20
-74.26479769462503
 30
0.0
 11
31.68999999999983
 21
-74.26479769462503
 31
0.0
  0
LINE
  5
BE
  8
0
  6
CONTINUOUS
 62
     7
 10
30.88000000000102
 20
-77.06479769462499
 30
0.0
 11
30.88000000000102
 21
-76.76479769462503
 31
0.0
  0
LINE
  5
BF
  8
0
  6
CONTINUOUS
 62
     7
 10
31.68999999999983
 20
-73.36479769462494
 30
0.0
 11
31.68999999999983
 21
-73.06479769462499
 31
0.0
  0
LINE
  5
C0
  8
0
  6
CONTINUOUS
 62
     7
 10
23.2600000000009
 20
-77.06479769462499
 30
0.0
 11
17.2600000000009
 21
-77.06479769462499
 31
0.0
  0
LINE
  5
C1
  8
0
  6
CONTINUOUS
 62
     7
 10
23.2600000000009
 20
-77.06479769462499
 30
0.0
 11
23.2600000000009
 21
-76.76479769462503
 31
0.0
  0
LINE
  5
C2
  8
0
  6
CONTINUOUS
 62
     7
 10
17.2600000000009
 20
-77.06479769462499
 30
0.0
 11
17.2600000000009
 21
-76.76479769462503
 31
0.0
  0
LINE
  5
C3
  8
0
  6
CONTINUOUS
 62
     7
 10
24.87999999999988
 20
-77.06479769462499
 30
0.0
 11
24.87999999999988
 21
-76.76479769462503
 31
0.0
  0
LINE
  5
C4
  8
0
  6
CONTINUOUS
 62
     7
 10
17.2600000000009
 20
-76.76479769462503
 30
0.0
 11
23.2600000000009
 21
-76.76479769462503
 31
0.0
  0
LINE
  5
C5
  8
0
  6
CONTINUOUS
 62
     7
 10
17.2600000000009
 20
-76.76479769462503
 30
0.0
 11
17.2600000000009
 21
-74.26479769462503
 31
0.0
  0
LINE
  5
C6
  8
0
  6
CONTINUOUS
 62
     7
 10
23.2600000000009
 20
-74.26479769462503
 30
0.0
 11
23.2600000000009
 21
-76.76479769462503
 31
0.0
  0
LINE
  5
C7
  8
0
  6
CONTINUOUS
 62
     7
 10
30.88000000000102
 20
-77.06479769462499
 30
0.0
 11
24.87999999999988
 21
-77.06479769462499
 31
0.0
  0
LINE
  5
C8
  8
0
  6
CONTINUOUS
 62
     7
 10
31.02169037387603
 20
-80.36716288941489
 30
0.0
 11
31.07405556867593
 21
-80.31479769462499
 31
0.0
  0
LINE
  5
C9
  8
0
  6
CONTINUOUS
 62
     7
 10
16.97830962612989
 20
-80.36716288941489
 30
0.0
 11
31.02169037387603
 21
-80.36716288941489
 31
0.0
  0
LINE
  5
CA
  8
0
  6
CONTINUOUS
 62
     7
 10
48.0
 20
-64.31479769462499
 30
0.0
 11
48.0
 21
-80.31479769462499
 31
0.0
  0
CIRCLE
  5
CB
  8
0
  6
CONTINUOUS
 62
     7
 10
22.34999999999991
 20
44.25520230537518
 30
0.0
 40
2.0
  0
CIRCLE
  5
CC
  8
0
  6
CONTINUOUS
 62
     7
 10
17.26999999999998
 20
44.25520230537518
 30
0.0
 40
2.0
  0
CIRCLE
  5
CD
  8
0
  6
CONTINUOUS
 62
     7
 10
12.18999999999983
 20
44.25520230537518
 30
0.0
 40
2.0
  0
CIRCLE
  5
CE
  8
0
  6
CONTINUOUS
 62
     7
 10
27.42999999999984
 20
44.25520230537518
 30
0.0
 40
2.0
  0
CIRCLE
  5
CF
  8
0
  6
CONTINUOUS
 62
     7
 10
37.39999999999986
 20
-35.50680487176101
 30
0.0
 40
1.899976387955135
  0
CIRCLE
  5
D0
  8
0
  6
CONTINUOUS
 62
     7
 10
37.39999999999986
 20
-21.91251651712582
 30
0.0
 40
1.89997638795489
  0
CIRCLE
  5
D1
  8
0
  6
CONTINUOUS
 62
     7
 10
37.70000000000005
 20
-9.11251651712587
 30
0.0
 40
1.899976387955121
  0
CIRCLE
  5
D2
  8
0
  6
CONTINUOUS
 62
     7
 10
37.70000000000005
 20
0.88748348287413
 30
0.0
 40
1.899976387955121
  0
CIRCLE
  5
D3
  8
0
  6
CONTINUOUS
 62
     7
 10
32.50999999999999
 20
44.25520230537518
 30
0.0
 40
2.0
  0
CIRCLE
  5
D4
  8
0
  6
CONTINUOUS
 62
     7
 10
35.04999999999996
 20
34.15520230537504
 30
0.0
 40
2.0
  0
CIRCLE
  5
D5
  8
0
  6
CONTINUOUS
 62
     7
 10
29.97000000000003
 20
34.15520230537504
 30
0.0
 40
2.0
  0
CIRCLE
  5
D6
  8
0
  6
CONTINUOUS
 62
     7
 10
19.80999999999995
 20
34.15520230537504
 30
0.0
 40
2.0
  0
CIRCLE
  5
D7
  8
0
  6
CONTINUOUS
 62
     7
 10
14.73000000000002
 20
34.15520230537504
 30
0.0
 40
2.0
  0
CIRCLE
  5
D8
  8
0
  6
CONTINUOUS
 62
     7
 10
24.88999999999987
 20
34.15520230537504
 30
0.0
 40
2.0
  0
CIRCLE
  5
D9
  8
0
  6
CONTINUOUS
 62
     7
 10
27.87999999999988
 20
-68.9147976946249
 30
0.0
 40
2.0
  0
CIRCLE
  5
DA
  8
0
  6
CONTINUOUS
 62
     7
 10
20.25999999999999
 20
-68.9147976946249
 30
0.0
 40
2.0
  0
CIRCLE
  5
DB
  8
0
  6
CONTINUOUS
 62
     7
 10
27.87999999999988
 20
-68.9147976946249
 30
0.0
 40
2.599999999999909
  0
CIRCLE
  5
DC
  8
0
  6
CONTINUOUS
 62
     7
 10
20.25999999999999
 20
-68.9147976946249
 30
0.0
 40
2.599999999999909
  0
ENDSEC
  0
EOF
